ISO-10303-21;
HEADER;
FILE_DESCRIPTION (( 'STEP AP203' ),
    '1' );
FILE_NAME ('BK7-RNDF-50-3.STEP',
    '2020-12-22T01:29:21',
    ( '' ),
    ( '' ),
    'SwSTEP 2.0',
    'SolidWorks 2020',
    '' );
FILE_SCHEMA (( 'CONFIG_CONTROL_DESIGN' ));
ENDSEC;

DATA;
#1 = CC_DESIGN_PERSON_AND_ORGANIZATION_ASSIGNMENT ( #86, #167, ( #118 ) ) ;
#2 = VECTOR ( 'NONE', #89, 1000.000000000000000 ) ;
#3 = EDGE_CURVE ( 'NONE', #173, #31, #54, .T. ) ;
#4 = AXIS2_PLACEMENT_3D ( 'NONE', #91, #148, #131 ) ;
#5 = APPLICATION_PROTOCOL_DEFINITION ( 'international standard', 'config_control_design', 1994, #96 ) ;
#6 = CALENDAR_DATE ( 2020, 22, 12 ) ;
#7 = APPROVAL_ROLE ( '' ) ;
#8 = FACE_OUTER_BOUND ( 'NONE', #45, .T. ) ;
#9 = CARTESIAN_POINT ( 'NONE',  ( 0.000000000000000000, 3.061616997868383043E-15, -25.00000000000000000 ) ) ;
#10 = CYLINDRICAL_SURFACE ( 'NONE', #77, 25.00000000000000000 ) ;
#11 = SECURITY_CLASSIFICATION ( '', '', #157 ) ;
#12 = FACE_OUTER_BOUND ( 'NONE', #156, .T. ) ;
#13 = UNCERTAINTY_MEASURE_WITH_UNIT (LENGTH_MEASURE( 1.000000000000000082E-05 ), #17, 'distance_accuracy_value', 'NONE');
#14 = APPROVAL_ROLE ( '' ) ;
#15 = PRODUCT_DEFINITION_SHAPE ( 'NONE', 'NONE',  #67 ) ;
#16 = PERSON_AND_ORGANIZATION_ROLE ( 'classification_officer' ) ;
#17 =( LENGTH_UNIT ( ) NAMED_UNIT ( * ) SI_UNIT ( .MILLI., .METRE. ) );
#18 = ORIENTED_EDGE ( 'NONE', *, *, #3, .T. ) ;
#19 = COORDINATED_UNIVERSAL_TIME_OFFSET ( 8, 0, .AHEAD. ) ;
#20 = CARTESIAN_POINT ( 'NONE',  ( -2.694222958124177204E-15, 0.000000000000000000, 25.00000000000000000 ) ) ;
#21 = CARTESIAN_POINT ( 'NONE',  ( 1.999999999999997113, 0.000000000000000000, 25.00000000000000000 ) ) ;
#22 = DIRECTION ( 'NONE',  ( 0.000000000000000000, 0.000000000000000000, -1.000000000000000000 ) ) ;
#23 = AXIS2_PLACEMENT_3D ( 'NONE', #172, #36, #102 ) ;
#24 = DIRECTION ( 'NONE',  ( -1.000000000000000000, -0.000000000000000000, -0.000000000000000000 ) ) ;
#25 = CARTESIAN_POINT ( 'NONE',  ( -2.694222958124177204E-15, 3.061616997868383043E-15, -25.00000000000000000 ) ) ;
#26 = CC_DESIGN_SECURITY_CLASSIFICATION ( #11, ( #118 ) ) ;
#27 = EDGE_CURVE ( 'NONE', #175, #116, #74, .T. ) ;
#28 = MANIFOLD_SOLID_BREP ( 'Ðý×', #92 ) ;
#29 = PERSON ( 'UNSPECIFIED', 'UNSPECIFIED', 'UNSPECIFIED', ('UNSPECIFIED'), ('UNSPECIFIED'), ('UNSPECIFIED') ) ;
#30 = DIRECTION ( 'NONE',  ( 1.000000000000000000, 0.000000000000000000, 0.000000000000000000 ) ) ;
#31 = VERTEX_POINT ( 'NONE', #25 ) ;
#32 = PERSON_AND_ORGANIZATION ( #29, #49 ) ;
#33 = MECHANICAL_CONTEXT ( 'NONE', #164, 'mechanical' ) ;
#34 = LOCAL_TIME ( 9, 29, 21.00000000000000000, #166 ) ;
#35 = APPROVAL_DATE_TIME ( #57, #147 ) ;
#36 = DIRECTION ( 'NONE',  ( -1.000000000000000000, 0.000000000000000000, -0.000000000000000000 ) ) ;
#37 = LINE ( 'NONE', #9, #149 ) ;
#38 = CARTESIAN_POINT ( 'NONE',  ( -2.694222958124177204E-15, 0.000000000000000000, 0.000000000000000000 ) ) ;
#39 = DIRECTION ( 'NONE',  ( 0.000000000000000000, 0.000000000000000000, 1.000000000000000000 ) ) ;
#40 = APPROVAL_PERSON_ORGANIZATION ( #43, #81, #73 ) ;
#41 =( GEOMETRIC_REPRESENTATION_CONTEXT ( 3 ) GLOBAL_UNCERTAINTY_ASSIGNED_CONTEXT ( ( #13 ) ) GLOBAL_UNIT_ASSIGNED_CONTEXT ( ( #17, #168, #99 ) ) REPRESENTATION_CONTEXT ( 'NONE', 'WORKASPACE' ) );
#42 = CIRCLE ( 'NONE', #145, 25.00000000000000000 ) ;
#43 = PERSON_AND_ORGANIZATION ( #29, #49 ) ;
#44 = DIRECTION ( 'NONE',  ( 0.000000000000000000, 0.000000000000000000, 1.000000000000000000 ) ) ;
#45 = EDGE_LOOP ( 'NONE', ( #18, #58 ) ) ;
#46 = CALENDAR_DATE ( 2020, 22, 12 ) ;
#47 = CARTESIAN_POINT ( 'NONE',  ( 1.999999999999997113, 0.000000000000000000, 0.000000000000000000 ) ) ;
#48 = CARTESIAN_POINT ( 'NONE',  ( 0.000000000000000000, 0.000000000000000000, 0.000000000000000000 ) ) ;
#49 = ORGANIZATION ( 'UNSPECIFIED', 'UNSPECIFIED', '' ) ;
#50 = ORIENTED_EDGE ( 'NONE', *, *, #94, .F. ) ;
#51 = ORIENTED_EDGE ( 'NONE', *, *, #174, .F. ) ;
#52 = AXIS2_PLACEMENT_3D ( 'NONE', #110, #44, #30 ) ;
#53 = AXIS2_PLACEMENT_3D ( 'NONE', #64, #24, #39 ) ;
#54 = CIRCLE ( 'NONE', #80, 25.00000000000000000 ) ;
#55 = PERSON_AND_ORGANIZATION ( #29, #49 ) ;
#56 = ADVANCED_FACE ( 'NONE', ( #78 ), #10, .T. ) ;
#57 = DATE_AND_TIME ( #136, #128 ) ;
#58 = ORIENTED_EDGE ( 'NONE', *, *, #87, .T. ) ;
#59 = PERSON_AND_ORGANIZATION_ROLE ( 'creator' ) ;
#60 = EDGE_LOOP ( 'NONE', ( #83, #104, #163, #50 ) ) ;
#61 = DIRECTION ( 'NONE',  ( -1.000000000000000000, -0.000000000000000000, -0.000000000000000000 ) ) ;
#62 = CC_DESIGN_PERSON_AND_ORGANIZATION_ASSIGNMENT ( #32, #59, ( #67 ) ) ;
#63 = CARTESIAN_POINT ( 'NONE',  ( 1.999999999999997113, 3.061616997868383043E-15, -25.00000000000000000 ) ) ;
#64 = CARTESIAN_POINT ( 'NONE',  ( 1.999999999999997113, 0.000000000000000000, 0.000000000000000000 ) ) ;
#65 = CC_DESIGN_APPROVAL ( #81, ( #118 ) ) ;
#66 = DIRECTION ( 'NONE',  ( -1.000000000000000000, -0.000000000000000000, -0.000000000000000000 ) ) ;
#67 = PRODUCT_DEFINITION ( 'UNKNOWN', '', #118, #111 ) ;
#68 = CYLINDRICAL_SURFACE ( 'NONE', #70, 25.00000000000000000 ) ;
#69 = SHAPE_DEFINITION_REPRESENTATION ( #15, #154 ) ;
#70 = AXIS2_PLACEMENT_3D ( 'NONE', #48, #114, #76 ) ;
#71 = DATE_AND_TIME ( #134, #34 ) ;
#72 = CC_DESIGN_APPROVAL ( #147, ( #67 ) ) ;
#73 = APPROVAL_ROLE ( '' ) ;
#74 = CIRCLE ( 'NONE', #53, 25.00000000000000000 ) ;
#75 = PERSON_AND_ORGANIZATION ( #29, #49 ) ;
#76 = DIRECTION ( 'NONE',  ( 0.000000000000000000, 0.000000000000000000, 1.000000000000000000 ) ) ;
#77 = AXIS2_PLACEMENT_3D ( 'NONE', #130, #119, #79 ) ;
#78 = FACE_OUTER_BOUND ( 'NONE', #60, .T. ) ;
#79 = DIRECTION ( 'NONE',  ( 0.000000000000000000, 0.000000000000000000, 1.000000000000000000 ) ) ;
#80 = AXIS2_PLACEMENT_3D ( 'NONE', #38, #66, #162 ) ;
#81 = APPROVAL ( #109, 'UNSPECIFIED' ) ;
#82 = PERSON_AND_ORGANIZATION ( #29, #49 ) ;
#83 = ORIENTED_EDGE ( 'NONE', *, *, #27, .T. ) ;
#84 = DATE_TIME_ROLE ( 'creation_date' ) ;
#85 = ORIENTED_EDGE ( 'NONE', *, *, #27, .F. ) ;
#86 = PERSON_AND_ORGANIZATION ( #29, #49 ) ;
#87 = EDGE_CURVE ( 'NONE', #31, #173, #95, .T. ) ;
#88 = LINE ( 'NONE', #170, #2 ) ;
#89 = DIRECTION ( 'NONE',  ( -1.000000000000000000, -0.000000000000000000, -0.000000000000000000 ) ) ;
#90 = ADVANCED_FACE ( 'NONE', ( #12 ), #68, .T. ) ;
#91 = CARTESIAN_POINT ( 'NONE',  ( -2.694222958124177204E-15, 0.000000000000000000, 0.000000000000000000 ) ) ;
#92 = CLOSED_SHELL ( 'NONE', ( #56, #90, #137, #152 ) ) ;
#93 = LOCAL_TIME ( 9, 29, 21.00000000000000000, #19 ) ;
#94 = EDGE_CURVE ( 'NONE', #175, #173, #88, .T. ) ;
#95 = CIRCLE ( 'NONE', #4, 25.00000000000000000 ) ;
#96 = APPLICATION_CONTEXT ( 'configuration controlled 3d designs of mechanical parts and assemblies' ) ;
#97 = APPLICATION_PROTOCOL_DEFINITION ( 'international standard', 'config_control_design', 1994, #164 ) ;
#98 = COORDINATED_UNIVERSAL_TIME_OFFSET ( 8, 0, .AHEAD. ) ;
#99 =( NAMED_UNIT ( * ) SI_UNIT ( $, .STERADIAN. ) SOLID_ANGLE_UNIT ( ) );
#100 = PERSON_AND_ORGANIZATION_ROLE ( 'creator' ) ;
#101 = DIRECTION ( 'NONE',  ( 0.000000000000000000, 0.000000000000000000, 1.000000000000000000 ) ) ;
#102 = DIRECTION ( 'NONE',  ( -0.000000000000000000, 0.000000000000000000, 1.000000000000000000 ) ) ;
#103 = ORIENTED_EDGE ( 'NONE', *, *, #94, .T. ) ;
#104 = ORIENTED_EDGE ( 'NONE', *, *, #120, .T. ) ;
#105 = CC_DESIGN_PERSON_AND_ORGANIZATION_ASSIGNMENT ( #155, #123, ( #135 ) ) ;
#106 = APPROVAL_PERSON_ORGANIZATION ( #82, #129, #14 ) ;
#107 = CC_DESIGN_APPROVAL ( #129, ( #11 ) ) ;
#108 = APPROVAL_STATUS ( 'not_yet_approved' ) ;
#109 = APPROVAL_STATUS ( 'not_yet_approved' ) ;
#110 = CARTESIAN_POINT ( 'NONE',  ( 0.000000000000000000, 0.000000000000000000, 0.000000000000000000 ) ) ;
#111 = DESIGN_CONTEXT ( 'detailed design', #96, 'design' ) ;
#112 = APPROVAL_DATE_TIME ( #140, #81 ) ;
#113 = CC_DESIGN_DATE_AND_TIME_ASSIGNMENT ( #158, #84, ( #67 ) ) ;
#114 = DIRECTION ( 'NONE',  ( -1.000000000000000000, -0.000000000000000000, -0.000000000000000000 ) ) ;
#115 = DIRECTION ( 'NONE',  ( -1.000000000000000000, -0.000000000000000000, -0.000000000000000000 ) ) ;
#116 = VERTEX_POINT ( 'NONE', #63 ) ;
#117 = CC_DESIGN_PERSON_AND_ORGANIZATION_ASSIGNMENT ( #75, #100, ( #118 ) ) ;
#118 = PRODUCT_DEFINITION_FORMATION_WITH_SPECIFIED_SOURCE ( 'ANY', '', #135, .NOT_KNOWN. ) ;
#119 = DIRECTION ( 'NONE',  ( -1.000000000000000000, -0.000000000000000000, -0.000000000000000000 ) ) ;
#120 = EDGE_CURVE ( 'NONE', #116, #31, #37, .T. ) ;
#121 = PRODUCT_RELATED_PRODUCT_CATEGORY ( 'detail', '', ( #135 ) ) ;
#122 = APPROVAL_DATE_TIME ( #71, #129 ) ;
#123 = PERSON_AND_ORGANIZATION_ROLE ( 'design_owner' ) ;
#124 = COORDINATED_UNIVERSAL_TIME_OFFSET ( 8, 0, .AHEAD. ) ;
#125 = EDGE_LOOP ( 'NONE', ( #85, #51 ) ) ;
#126 = CALENDAR_DATE ( 2020, 22, 12 ) ;
#127 = FACE_OUTER_BOUND ( 'NONE', #125, .T. ) ;
#128 = LOCAL_TIME ( 9, 29, 21.00000000000000000, #169 ) ;
#129 = APPROVAL ( #151, 'UNSPECIFIED' ) ;
#130 = CARTESIAN_POINT ( 'NONE',  ( 0.000000000000000000, 0.000000000000000000, 0.000000000000000000 ) ) ;
#131 = DIRECTION ( 'NONE',  ( 0.000000000000000000, 0.000000000000000000, 1.000000000000000000 ) ) ;
#132 = DATE_TIME_ROLE ( 'classification_date' ) ;
#133 = CC_DESIGN_DATE_AND_TIME_ASSIGNMENT ( #153, #132, ( #11 ) ) ;
#134 = CALENDAR_DATE ( 2020, 22, 12 ) ;
#135 = PRODUCT ( 'BK7-RNDF-50-3', 'BK7-RNDF-50-3', '', ( #33 ) ) ;
#136 = CALENDAR_DATE ( 2020, 22, 12 ) ;
#137 = ADVANCED_FACE ( 'NONE', ( #127 ), #159, .F. ) ;
#138 = LOCAL_TIME ( 9, 29, 21.00000000000000000, #98 ) ;
#139 = ORIENTED_EDGE ( 'NONE', *, *, #87, .F. ) ;
#140 = DATE_AND_TIME ( #126, #138 ) ;
#141 = ORIENTED_EDGE ( 'NONE', *, *, #120, .F. ) ;
#142 = PERSON_AND_ORGANIZATION ( #29, #49 ) ;
#143 = CARTESIAN_POINT ( 'NONE',  ( -1.347111479062088602E-15, 25.00000000000000000, 0.000000000000000000 ) ) ;
#144 = DIRECTION ( 'NONE',  ( 1.000000000000000000, 0.000000000000000000, 0.000000000000000000 ) ) ;
#145 = AXIS2_PLACEMENT_3D ( 'NONE', #47, #61, #101 ) ;
#146 = ORIENTED_EDGE ( 'NONE', *, *, #174, .T. ) ;
#147 = APPROVAL ( #108, 'UNSPECIFIED' ) ;
#148 = DIRECTION ( 'NONE',  ( -1.000000000000000000, -0.000000000000000000, -0.000000000000000000 ) ) ;
#149 = VECTOR ( 'NONE', #115, 1000.000000000000000 ) ;
#150 = APPROVAL_PERSON_ORGANIZATION ( #55, #147, #7 ) ;
#151 = APPROVAL_STATUS ( 'not_yet_approved' ) ;
#152 = ADVANCED_FACE ( 'NONE', ( #8 ), #161, .F. ) ;
#153 = DATE_AND_TIME ( #6, #165 ) ;
#154 = ADVANCED_BREP_SHAPE_REPRESENTATION ( 'BK7-RNDF-50-3', ( #28, #52 ), #41 ) ;
#155 = PERSON_AND_ORGANIZATION ( #29, #49 ) ;
#156 = EDGE_LOOP ( 'NONE', ( #141, #146, #103, #139 ) ) ;
#157 = SECURITY_CLASSIFICATION_LEVEL ( 'unclassified' ) ;
#158 = DATE_AND_TIME ( #46, #93 ) ;
#159 = PLANE ( 'NONE',  #23 ) ;
#160 = CC_DESIGN_PERSON_AND_ORGANIZATION_ASSIGNMENT ( #142, #16, ( #11 ) ) ;
#161 = PLANE ( 'NONE',  #171 ) ;
#162 = DIRECTION ( 'NONE',  ( 0.000000000000000000, 0.000000000000000000, 1.000000000000000000 ) ) ;
#163 = ORIENTED_EDGE ( 'NONE', *, *, #3, .F. ) ;
#164 = APPLICATION_CONTEXT ( 'configuration controlled 3d designs of mechanical parts and assemblies' ) ;
#165 = LOCAL_TIME ( 9, 29, 21.00000000000000000, #124 ) ;
#166 = COORDINATED_UNIVERSAL_TIME_OFFSET ( 8, 0, .AHEAD. ) ;
#167 = PERSON_AND_ORGANIZATION_ROLE ( 'design_supplier' ) ;
#168 =( NAMED_UNIT ( * ) PLANE_ANGLE_UNIT ( ) SI_UNIT ( $, .RADIAN. ) );
#169 = COORDINATED_UNIVERSAL_TIME_OFFSET ( 8, 0, .AHEAD. ) ;
#170 = CARTESIAN_POINT ( 'NONE',  ( 0.000000000000000000, 0.000000000000000000, 25.00000000000000000 ) ) ;
#171 = AXIS2_PLACEMENT_3D ( 'NONE', #143, #144, #22 ) ;
#172 = CARTESIAN_POINT ( 'NONE',  ( 1.999999999999998224, 25.00000000000000000, 0.000000000000000000 ) ) ;
#173 = VERTEX_POINT ( 'NONE', #20 ) ;
#174 = EDGE_CURVE ( 'NONE', #116, #175, #42, .T. ) ;
#175 = VERTEX_POINT ( 'NONE', #21 ) ;
ENDSEC;
END-ISO-10303-21;
